  0
SECTION
  2
HEADER
  9
$ACADVER
  1
AC1015
  9
$ACADMAINTVER
 70
    20
  9
$DWGCODEPAGE
  3
ANSI_1252
  9
$INSBASE
 10
0.0
 20
0.0
 30
0.0
  9
$EXTMIN
 10
-18.0649493376529
 20
767.7180819306032
 30
0.0
  9
$EXTMAX
 10
-15.98304323064388
 20
768.1330819306032
 30
0.0
  9
$LIMMIN
 10
0.0
 20
0.0
  9
$LIMMAX
 10
420.0
 20
297.0
  9
$ORTHOMODE
 70
     1
  9
$REGENMODE
 70
     1
  9
$FILLMODE
 70
     1
  9
$QTEXTMODE
 70
     0
  9
$MIRRTEXT
 70
     1
  9
$LTSCALE
 40
1.0
  9
$ATTMODE
 70
     1
  9
$TEXTSIZE
 40
2.5
  9
$TRACEWID
 40
1.0
  9
$TEXTSTYLE
  7
SANINDUSA
  9
$CLAYER
  8
0
  9
$CELTYPE
  6
ByLayer
  9
$CECOLOR
 62
   256
  9
$CELTSCALE
 40
1.0
  9
$DISPSILH
 70
     0
  9
$DIMSCALE
 40
1.0
  9
$DIMASZ
 40
2.0
  9
$DIMEXO
 40
1.0
  9
$DIMDLI
 40
1.0
  9
$DIMRND
 40
0.0
  9
$DIMDLE
 40
0.0
  9
$DIMEXE
 40
1.0
  9
$DIMTP
 40
0.0
  9
$DIMTM
 40
0.0
  9
$DIMTXT
 40
2.0
  9
$DIMCEN
 40
0.0
  9
$DIMTSZ
 40
0.0
  9
$DIMTOL
 70
     0
  9
$DIMLIM
 70
     0
  9
$DIMTIH
 70
     0
  9
$DIMTOH
 70
     0
  9
$DIMSE1
 70
     0
  9
$DIMSE2
 70
     0
  9
$DIMTAD
 70
     1
  9
$DIMZIN
 70
     8
  9
$DIMBLK
  1

  9
$DIMASO
 70
     1
  9
$DIMSHO
 70
     1
  9
$DIMPOST
  1

  9
$DIMAPOST
  1

  9
$DIMALT
 70
     0
  9
$DIMALTD
 70
     3
  9
$DIMALTF
 40
0.03937007874016
  9
$DIMLFAC
 40
1.0
  9
$DIMTOFL
 70
     1
  9
$DIMTVP
 40
0.0
  9
$DIMTIX
 70
     0
  9
$DIMSOXD
 70
     0
  9
$DIMSAH
 70
     0
  9
$DIMBLK1
  1

  9
$DIMBLK2
  1

  9
$DIMSTYLE
  2
SANINDUSA
  9
$DIMCLRD
 70
   256
  9
$DIMCLRE
 70
   256
  9
$DIMCLRT
 70
   256
  9
$DIMTFAC
 40
1.0
  9
$DIMGAP
 40
1.0
  9
$DIMJUST
 70
     0
  9
$DIMSD1
 70
     0
  9
$DIMSD2
 70
     0
  9
$DIMTOLJ
 70
     0
  9
$DIMTZIN
 70
     8
  9
$DIMALTZ
 70
     0
  9
$DIMALTTZ
 70
     0
  9
$DIMUPT
 70
     0
  9
$DIMDEC
 70
     1
  9
$DIMTDEC
 70
     1
  9
$DIMALTU
 70
     2
  9
$DIMALTTD
 70
     3
  9
$DIMTXSTY
  7
SANINDUSA
  9
$DIMAUNIT
 70
     0
  9
$DIMADEC
 70
     1
  9
$DIMALTRND
 40
0.0
  9
$DIMAZIN
 70
     0
  9
$DIMDSEP
 70
    44
  9
$DIMATFIT
 70
     3
  9
$DIMFRAC
 70
     0
  9
$DIMLDRBLK
  1

  9
$DIMLUNIT
 70
     2
  9
$DIMLWD
 70
    -1
  9
$DIMLWE
 70
    -1
  9
$DIMTMOVE
 70
     0
  9
$LUNITS
 70
     2
  9
$LUPREC
 70
     4
  9
$SKETCHINC
 40
1.0
  9
$FILLETRAD
 40
3.0
  9
$AUNITS
 70
     0
  9
$AUPREC
 70
     0
  9
$MENU
  1
.
  9
$ELEVATION
 40
0.0
  9
$PELEVATION
 40
0.0
  9
$THICKNESS
 40
0.0
  9
$LIMCHECK
 70
     0
  9
$CHAMFERA
 40
10.0
  9
$CHAMFERB
 40
10.0
  9
$CHAMFERC
 40
20.0
  9
$CHAMFERD
 40
0.0
  9
$SKPOLY
 70
     0
  9
$TDCREATE
 40
2453504.399140625
  9
$TDUCREATE
 40
2453504.357473959
  9
$TDUPDATE
 40
2453977.582853727
  9
$TDUUPDATE
 40
2453977.541187060
  9
$TDINDWG
 40
0.0036678935
  9
$TDUSRTIMER
 40
0.0036678935
  9
$USRTIMER
 70
     1
  9
$ANGBASE
 50
0.0
  9
$ANGDIR
 70
     0
  9
$PDMODE
 70
     0
  9
$PDSIZE
 40
0.0
  9
$PLINEWID
 40
0.0
  9
$SPLFRAME
 70
     0
  9
$SPLINETYPE
 70
     6
  9
$SPLINESEGS
 70
     8
  9
$HANDSEED
  5
10C6
  9
$SURFTAB1
 70
     6
  9
$SURFTAB2
 70
     6
  9
$SURFTYPE
 70
     6
  9
$SURFU
 70
     6
  9
$SURFV
 70
     6
  9
$UCSBASE
  2

  9
$UCSNAME
  2

  9
$UCSORG
 10
0.0
 20
0.0
 30
0.0
  9
$UCSXDIR
 10
1.0
 20
0.0
 30
0.0
  9
$UCSYDIR
 10
0.0
 20
1.0
 30
0.0
  9
$UCSORTHOREF
  2

  9
$UCSORTHOVIEW
 70
     0
  9
$UCSORGTOP
 10
0.0
 20
0.0
 30
0.0
  9
$UCSORGBOTTOM
 10
0.0
 20
0.0
 30
0.0
  9
$UCSORGLEFT
 10
0.0
 20
0.0
 30
0.0
  9
$UCSORGRIGHT
 10
0.0
 20
0.0
 30
0.0
  9
$UCSORGFRONT
 10
0.0
 20
0.0
 30
0.0
  9
$UCSORGBACK
 10
0.0
 20
0.0
 30
0.0
  9
$PUCSBASE
  2

  9
$PUCSNAME
  2

  9
$PUCSORG
 10
0.0
 20
0.0
 30
0.0
  9
$PUCSXDIR
 10
1.0
 20
0.0
 30
0.0
  9
$PUCSYDIR
 10
0.0
 20
1.0
 30
0.0
  9
$PUCSORTHOREF
  2

  9
$PUCSORTHOVIEW
 70
     0
  9
$PUCSORGTOP
 10
0.0
 20
0.0
 30
0.0
  9
$PUCSORGBOTTOM
 10
0.0
 20
0.0
 30
0.0
  9
$PUCSORGLEFT
 10
0.0
 20
0.0
 30
0.0
  9
$PUCSORGRIGHT
 10
0.0
 20
0.0
 30
0.0
  9
$PUCSORGFRONT
 10
0.0
 20
0.0
 30
0.0
  9
$PUCSORGBACK
 10
0.0
 20
0.0
 30
0.0
  9
$USERI1
 70
     0
  9
$USERI2
 70
     0
  9
$USERI3
 70
     0
  9
$USERI4
 70
     0
  9
$USERI5
 70
     0
  9
$USERR1
 40
0.0
  9
$USERR2
 40
0.0
  9
$USERR3
 40
0.0
  9
$USERR4
 40
0.0
  9
$USERR5
 40
0.0
  9
$WORLDVIEW
 70
     1
  9
$SHADEDGE
 70
     3
  9
$SHADEDIF
 70
    70
  9
$TILEMODE
 70
     1
  9
$MAXACTVP
 70
    64
  9
$PINSBASE
 10
0.0
 20
0.0
 30
0.0
  9
$PLIMCHECK
 70
     0
  9
$PEXTMIN
 10
1.000000000000000E+20
 20
1.000000000000000E+20
 30
1.000000000000000E+20
  9
$PEXTMAX
 10
-1.000000000000000E+20
 20
-1.000000000000000E+20
 30
-1.000000000000000E+20
  9
$PLIMMIN
 10
0.0
 20
0.0
  9
$PLIMMAX
 10
420.0
 20
297.0
  9
$UNITMODE
 70
     0
  9
$VISRETAIN
 70
     1
  9
$PLINEGEN
 70
     0
  9
$PSLTSCALE
 70
     1
  9
$TREEDEPTH
 70
  3020
  9
$CMLSTYLE
  2
Standard
  9
$CMLJUST
 70
     0
  9
$CMLSCALE
 40
20.0
  9
$PROXYGRAPHICS
 70
     1
  9
$MEASUREMENT
 70
     1
  9
$CELWEIGHT
370
    -1
  9
$ENDCAPS
280
     0
  9
$JOINSTYLE
280
     0
  9
$LWDISPLAY
290
     0
  9
$INSUNITS
 70
     6
  9
$HYPERLINKBASE
  1

  9
$STYLESHEET
  1
monochrome.ctb
  9
$XEDIT
290
     1
  9
$CEPSNTYPE
380
     0
  9
$PSTYLEMODE
290
     1
  9
$FINGERPRINTGUID
  2
{B98A73AA-52AA-4C10-B469-C0E7150AC31F}
  9
$VERSIONGUID
  2
{CB73BD59-5543-40E1-8423-288B41998240}
  9
$EXTNAMES
290
     1
  9
$PSVPSCALE
 40
0.0
  9
$OLESTARTUP
290
     0
  0
ENDSEC
  0
SECTION
  2
CLASSES
  0
CLASS
  1
ACDBDICTIONARYWDFLT
  2
AcDbDictionaryWithDefault
  3
ObjectDBX Classes
 90
        0
280
     0
281
     0
  0
CLASS
  1
ACDBPLACEHOLDER
  2
AcDbPlaceHolder
  3
ObjectDBX Classes
 90
        0
280
     0
281
     0
  0
CLASS
  1
LAYOUT
  2
AcDbLayout
  3
ObjectDBX Classes
 90
        0
280
     0
281
     0
  0
CLASS
  1
DICTIONARYVAR
  2
AcDbDictionaryVar
  3
ObjectDBX Classes
 90
        0
280
     0
281
     0
  0
CLASS
  1
DIMASSOC
  2
AcDbDimAssoc
  3
"AcDbDimAssoc|Product Desc:     AcDim ARX App For Dimension|Company:          Autodesk, Inc.|WEB Address:      www.autodesk.com"
 90
    32768
280
     0
281
     0
  0
CLASS
  1
TABLESTYLE
  2
AcDbTableStyle
  3
ObjectDBX Classes
 90
     2047
280
     0
281
     0
  0
ENDSEC
  0
SECTION
  2
TABLES
  0
TABLE
  2
VPORT
  5
8
330
0
100
AcDbSymbolTable
 70
     2
  0
VPORT
  5
10BE
330
8
100
AcDbSymbolTableRecord
100
AcDbViewportTableRecord
  2
*Active
 70
     0
 10
0.0
 20
0.0
 11
1.0
 21
1.0
 12
-17.02399628414839
 22
767.9255819306032
 13
0.0
 23
0.0
 14
10.0
 24
10.0
 15
10.0
 25
10.0
 16
0.0
 26
0.0
 36
1.0
 17
0.0
 27
0.0
 37
0.0
 40
1.31110010824354
 41
1.593939393939393
 42
50.0
 43
0.0
 44
0.0
 50
0.0
 51
0.0
 71
     0
 72
   100
 73
     1
 74
     2
 75
     0
 76
     0
 77
     0
 78
     0
281
     0
 65
     1
110
0.0
120
0.0
130
0.0
111
1.0
121
0.0
131
0.0
112
0.0
122
1.0
132
0.0
 79
     0
146
0.0
  0
ENDTAB
  0
TABLE
  2
LTYPE
  5
5
330
0
100
AcDbSymbolTable
 70
     3
  0
LTYPE
  5
14
330
5
100
AcDbSymbolTableRecord
100
AcDbLinetypeTableRecord
  2
ByBlock
 70
     0
  3

 72
    65
 73
     0
 40
0.0
  0
LTYPE
  5
15
330
5
100
AcDbSymbolTableRecord
100
AcDbLinetypeTableRecord
  2
ByLayer
 70
     0
  3

 72
    65
 73
     0
 40
0.0
  0
LTYPE
  5
16
330
5
100
AcDbSymbolTableRecord
100
AcDbLinetypeTableRecord
  2
Continuous
 70
     0
  3
Solid line
 72
    65
 73
     0
 40
0.0
  0
LTYPE
  5
2D
330
5
100
AcDbSymbolTableRecord
100
AcDbLinetypeTableRecord
  2
DASHDOT
 70
     0
  3
Dash dot __ . __ . __ . __ . __ . __ . __ . __
 72
    65
 73
     4
 40
25.4
 49
12.7
 74
     0
 49
-6.349999999999999
 74
     0
 49
0.0
 74
     0
 49
-6.349999999999999
 74
     0
  0
LTYPE
  5
2E
330
5
100
AcDbSymbolTableRecord
100
AcDbLinetypeTableRecord
  2
HIDDEN
 70
     0
  3
Hidden __ __ __ __ __ __ __ __ __ __ __ __ __ _
 72
    65
 73
     2
 40
9.524999999999998
 49
6.349999999999999
 74
     0
 49
-3.174999999999999
 74
     0
  0
ENDTAB
  0
TABLE
  2
LAYER
  5
2
330
0
100
AcDbSymbolTable
 70
    16
  0
LAYER
  5
10
330
2
100
AcDbSymbolTableRecord
100
AcDbLayerTableRecord
  2
0
 70
     0
 62
     7
  6
Continuous
370
    -3
390
F
  0
LAYER
  5
2F
330
2
100
AcDbSymbolTableRecord
100
AcDbLayerTableRecord
  2
1
 70
     0
 62
     1
  6
Continuous
370
    -3
390
F
  0
LAYER
  5
30
330
2
100
AcDbSymbolTableRecord
100
AcDbLayerTableRecord
  2
2
 70
     0
 62
     2
  6
Continuous
370
    -3
390
F
  0
LAYER
  5
31
330
2
100
AcDbSymbolTableRecord
100
AcDbLayerTableRecord
  2
3
 70
     0
 62
     3
  6
Continuous
370
    -3
390
F
  0
LAYER
  5
32
330
2
100
AcDbSymbolTableRecord
100
AcDbLayerTableRecord
  2
4
 70
     0
 62
     4
  6
Continuous
370
    -3
390
F
  0
LAYER
  5
33
330
2
100
AcDbSymbolTableRecord
100
AcDbLayerTableRecord
  2
5
 70
     0
 62
     5
  6
Continuous
370
    -3
390
F
  0
LAYER
  5
34
330
2
100
AcDbSymbolTableRecord
100
AcDbLayerTableRecord
  2
6
 70
     0
 62
     6
  6
Continuous
370
    -3
390
F
  0
LAYER
  5
35
330
2
100
AcDbSymbolTableRecord
100
AcDbLayerTableRecord
  2
7
 70
     0
 62
     7
  6
Continuous
370
    -3
390
F
  0
LAYER
  5
36
330
2
100
AcDbSymbolTableRecord
100
AcDbLayerTableRecord
  2
cen
 70
     0
 62
     7
  6
DASHDOT
370
    -3
390
F
  0
LAYER
  5
37
330
2
100
AcDbSymbolTableRecord
100
AcDbLayerTableRecord
  2
hid
 70
     0
 62
     7
  6
HIDDEN
370
    -3
390
F
  0
LAYER
  5
5D6
330
2
100
AcDbSymbolTableRecord
100
AcDbLayerTableRecord
  2
hatch
 70
     0
 62
     9
  6
Continuous
370
    -3
390
F
  0
LAYER
  5
8AF
330
2
100
AcDbSymbolTableRecord
100
AcDbLayerTableRecord
  2
9
 70
     0
 62
     9
  6
Continuous
370
    -3
390
F
  0
LAYER
  5
8F8
330
2
100
AcDbSymbolTableRecord
100
AcDbLayerTableRecord
  2
leg fin
 70
     0
 62
     9
  6
Continuous
370
    -3
390
F
  0
LAYER
  5
91D
330
2
100
AcDbSymbolTableRecord
100
AcDbLayerTableRecord
  2
cotas
 70
     0
 62
     1
  6
Continuous
370
    -3
390
F
  0
LAYER
  5
92F
330
2
100
AcDbSymbolTableRecord
100
AcDbLayerTableRecord
  2
Defpoints
 70
     0
 62
     7
  6
Continuous
290
     0
370
    -3
390
F
  0
LAYER
  5
BA5
330
2
100
AcDbSymbolTableRecord
100
AcDbLayerTableRecord
  2
SANINDUSA
 70
     0
 62
     3
  6
Continuous
370
    -3
390
F
  0
ENDTAB
  0
TABLE
  2
STYLE
  5
3
330
0
100
AcDbSymbolTable
 70
     3
  0
STYLE
  5
11
330
3
100
AcDbSymbolTableRecord
100
AcDbTextStyleTableRecord
  2
Standard
 70
     0
 40
0.0
 41
1.0
 50
0.0
 71
     0
 42
2.5
  3
Avgardn.ttf
  4

1001
ACAD
1000
AvantGarde Bk BT
1071
       34
  0
STYLE
  5
2C
330
3
100
AcDbSymbolTableRecord
100
AcDbTextStyleTableRecord
  2

 70
     1
 40
0.0
 41
1.0
 50
0.0
 71
     0
 42
2.5
  3
ltypeshp.shx
  4

  0
STYLE
  5
91F
330
3
100
AcDbSymbolTableRecord
100
AcDbTextStyleTableRecord
  2
SANINDUSA
 70
     0
 40
0.0
 41
1.0
 50
0.0
 71
     0
 42
2.5
  3
verdana.TTF
  4

1001
ACAD
1000
Verdana
1071
       34
  0
ENDTAB
  0
TABLE
  2
VIEW
  5
6
330
0
100
AcDbSymbolTable
 70
     0
  0
ENDTAB
  0
TABLE
  2
UCS
  5
7
330
0
100
AcDbSymbolTable
 70
     0
  0
ENDTAB
  0
TABLE
  2
APPID
  5
9
330
0
100
AcDbSymbolTable
 70
     2
  0
APPID
  5
12
330
9
100
AcDbSymbolTableRecord
100
AcDbRegAppTableRecord
  2
ACAD
 70
     0
  0
APPID
  5
3A
330
9
100
AcDbSymbolTableRecord
100
AcDbRegAppTableRecord
  2
DCO15
 70
     0
  0
ENDTAB
  0
TABLE
  2
DIMSTYLE
  5
A
330
0
100
AcDbSymbolTable
 70
     2
100
AcDbDimStyleTable
 71
     1
340
921
  0
DIMSTYLE
105
45
330
A
100
AcDbSymbolTableRecord
100
AcDbDimStyleTableRecord
  2
STANDARD
 70
     0
289
     0
340
11
  0
DIMSTYLE
105
921
330
A
100
AcDbSymbolTableRecord
100
AcDbDimStyleTableRecord
  2
SANINDUSA
 70
     0
 41
2.0
 42
1.0
 43
1.0
 44
1.0
 73
     0
 74
     0
 77
     1
 78
     8
140
2.0
141
0.0
143
0.03937007874016
147
1.0
171
     3
172
     1
176
   256
177
   256
178
   256
179
     1
271
     1
272
     1
274
     3
278
    44
283
     0
284
     8
340
91F
371
    -1
372
    -1
  0
ENDTAB
  0
TABLE
  2
BLOCK_RECORD
  5
1
330
0
100
AcDbSymbolTable
 70
    54
  0
BLOCK_RECORD
  5
1F
330
1
100
AcDbSymbolTableRecord
100
AcDbBlockTableRecord
  2
*Model_Space
340
22
  0
BLOCK_RECORD
  5
1B
330
1
100
AcDbSymbolTableRecord
100
AcDbBlockTableRecord
  2
*Paper_Space
340
1E
  0
BLOCK_RECORD
  5
23
330
1
100
AcDbSymbolTableRecord
100
AcDbBlockTableRecord
  2
*Paper_Space0
340
26
  0
BLOCK_RECORD
  5
919
330
1
100
AcDbSymbolTableRecord
100
AcDbBlockTableRecord
  2
_DotSmall
340
0
  0
BLOCK_RECORD
  5
922
330
1
100
AcDbSymbolTableRecord
100
AcDbBlockTableRecord
  2
base para cotas
340
0
310
2800000020000000200000000100080000000000000400000000000000000000000000000000000000000000000080000080000000808000800000008000800080800000C0C0C000C0DCC000F0CAA6000020400000206000002080000020A0000020C0000020E00000400000004020000040400000406000004080000040A0
310
000040C0000040E00000600000006020000060400000606000006080000060A0000060C0000060E00000800000008020000080400000806000008080000080A0000080C0000080E00000A0000000A0200000A0400000A0600000A0800000A0A00000A0C00000A0E00000C0000000C0200000C0400000C0600000C0800000C0
310
A00000C0C00000C0E00000E0000000E0200000E0400000E0600000E0800000E0A00000E0C00000E0E00040000000400020004000400040006000400080004000A0004000C0004000E00040200000402020004020400040206000402080004020A0004020C0004020E000404000004040200040404000404060004040800040
310
40A0004040C0004040E00040600000406020004060400040606000406080004060A0004060C0004060E00040800000408020004080400040806000408080004080A0004080C0004080E00040A0000040A0200040A0400040A0600040A0800040A0A00040A0C00040A0E00040C0000040C0200040C0400040C0600040C08000
310
40C0A00040C0C00040C0E00040E0000040E0200040E0400040E0600040E0800040E0A00040E0C00040E0E00080000000800020008000400080006000800080008000A0008000C0008000E00080200000802020008020400080206000802080008020A0008020C0008020E00080400000804020008040400080406000804080
310
008040A0008040C0008040E00080600000806020008060400080606000806080008060A0008060C0008060E00080800000808020008080400080806000808080008080A0008080C0008080E00080A0000080A0200080A0400080A0600080A0800080A0A00080A0C00080A0E00080C0000080C0200080C0400080C0600080C0
310
800080C0A00080C0C00080C0E00080E0000080E0200080E0400080E0600080E0800080E0A00080E0C00080E0E000C0000000C0002000C0004000C0006000C0008000C000A000C000C000C000E000C0200000C0202000C0204000C0206000C0208000C020A000C020C000C020E000C0400000C0402000C0404000C0406000C0
310
408000C040A000C040C000C040E000C0600000C0602000C0604000C0606000C0608000C060A000C060C000C060E000C0800000C0802000C0804000C0806000C0808000C080A000C080C000C080E000C0A00000C0A02000C0A04000C0A06000C0A08000C0A0A000C0A0C000C0A0E000C0C00000C0C02000C0C04000C0C06000
310
C0C08000C0C0A000F0FBFF00A4A0A000808080000000FF0000FF000000FFFF00FF000000FF00FF00FFFF0000FFFFFF00A4A4A4A4A4A4A4A4A4A4A4A4A4A4A4A4A4A4A4A4A4A4A4A4A4A4A4A4A4A4A4A4A4A4A4A4A4A4A4A4A4A4A4A4A4A4A4A4A4A4A4A4A4A4A4A4A4A4A4A4A4A4A4A4A4A4A4A4A4A4A4A4A4A4A4A4A4A4A4
310
A4A4A4A4A4A4A4A4A4A4A4A4A4A4A4A4A4A4A4A4A4A4A4A4A4A4A4A4A4A4A4A4A4A4A4A4A4A4A4A4A4A4A4A4A4A4A4A4A4A4A4A4A4A4A4A4A4A4A4A4A4A4A4A4A4A4A4A4A4A4A4A4A4A4A4A4A4A4A4A4A4A4A4A4A4A4A4A4A4A4A4A4A4A4A4A4A4A4A4A4A4A4A4A4A4A4A4A4A4A4A4A4A4A4A4A4A4A4A4A4A4A4A4A4A4A4A4
310
A4A4A4A4A4A4A4A4A4A4A4A4A4A4A4A4A4A4A4A4A4A4A4A4A4A4A4A4A4A4A4A4A4A4A4A4A4A4A4A4A4A4A4A4A4A4A4A4A4A4A4A4A4A4A4A4A4A4A4A4A4A4A4A4A4A4A4A4A4A4A4A4A4A4A4A4A4A4A4A4A4A4A4A4A4A4A4A4A4A4A4A4A4A4A4A4A4A4A4A4A4A4A4A4A4A4A4A4A4A4A4A4A4A4A4A4A4A4A4A4A4A4A4A4A4A4A4
310
A4A4A4A4A4A4A4A4A4A4A4A4A4A4A4A4A4A4A4A4A4A4A4A4A4A4A4A4A4A4A4A4A4A4A4A4A4A4A4A4A4A4A4A4A4A4A4A4A4A4A4A4A4A4A4A4A4A4A4A4A4A4A4A4A4A4A4A4A4A4A4A4A4A4A4A4A4A4A4A4A4A4A4A4A4A4A4A4A4A4A4A4A4A4A4A4A4A4A4A4A4A4A4A4A4A4A4A4A4A4A4A4A4A4A4A4F9F9F9F9F9F9F9F9F9F9F9
310
F9F9F9F9F9F9F9F9F9F9F9F9F9F9F9F9F9F9F9A4A4F9F9F9F9F9F9F9F9F9F9F9F9F9F9F9F9F9F9F9F9F9F9F9F9F9F9F9F9F9F9A4A4F9F9F9F9F9F9F9F9F9F9F9F9F9F9F9F9F9F9F9F9F9F9F9F9F9F9F9F9F9F9A4A4F9A4A4A4A4A4A4A4A4A4A4A4A4A4A4A4A4A4A4A4A4A4A4A4A4A4A4A4A4F9A4A4A4A4A4A4A4A4A4A4A4A4
310
A4A4A4A4A4A4A4A4A4A4A4A4A4A4A4A4A4A4A4A4A4A4A4A4A4A4A4A4A4A4A4A4A4A4A4A4A4A4A4A4A4A4A4A4A4A4A4A4A4A4A4A4A4A4A4A4A4A4A4A4A4A4A4A4A4A4A4A4A4A4A4A4A4A4A4A4A4A4A4A4A4A4A4A4A4A4A4A4A4A4A4A4A4A4A4A4A4A4A4A4A4A4A4A4A4A4A4A4A4A4A4A4A4A4A4A4A4A4A4A4A4A4A4A4A4A4A4
310
A4A4A4A4A4A4A4A4A4A4A4A4A4A4A4A4A4A4A4A4A4A4A4A4A4A4A4A4A4A4A4A4A4A4A4A4A4A4A4A4A4A4A4A4A4A4A4A4A4A4A4A4A4A4A4A4A4A4A4A4A4A4A4A4A4A4A4A4A4A4A4A4A4A4A4A4A4A4A4A4A4A4A4A4A4A4A4A4A4A4A4A4A4A4A4A4A4A4A4A4A4A4A4A4A4A4A4A4A4A4A4A4A4A4A4A4A4A4A4A4A4A4A4A4A4A4A4
310
A4A4A4A4A4A4A4A4A4A4A4A4A4A4A4A4A4A4A4A4A4A4A4A4A4A4A4A4A4A4A4A4A4A4A4A4A4A4A4A4A4A4A4A4A4A4A4A4A4A4A4A4A4A4A4A4A4A4A4A4A4A4A4A4A4A4A4A4A4A4A4A4A4A4A4A4A4A4A4A4A4A4A4A4A4A4A4A4A4A4A4A4A4A4A4A4A4A4A4A4A4A4A4A4A4A4A4A4A4A4A4A4A4A4A4A4A4A4A4A4A4A4A4A4A4A4A4
310
A4A4A4A4A4A4A4A4A4A4A4A4A4A4A4A4A4A4A4A4A4A4A4A4A4A4A4A4A4A4A4A4A4A4A4A4A4A4A4A4A4A4A4A4A4A4A4A4A4A4A4A4A4A4A4A4
1001
ACAD
1000
DesignCenter Data
1002
{
1070
     1
1070
     4
1002
}
  0
BLOCK_RECORD
  5
AA8
330
1
100
AcDbSymbolTableRecord
100
AcDbBlockTableRecord
  2
_CLOSED
340
0
  0
ENDTAB
  0
ENDSEC
  0
SECTION
  2
BLOCKS
  0
BLOCK
  5
20
330
1F
100
AcDbEntity
  8
0
100
AcDbBlockBegin
  2
*Model_Space
 70
     0
 10
0.0
 20
0.0
 30
0.0
  3
*Model_Space
  1

  0
ENDBLK
  5
21
330
1F
100
AcDbEntity
  8
0
100
AcDbBlockEnd
  0
BLOCK
  5
1C
330
1B
100
AcDbEntity
 67
     1
  8
0
100
AcDbBlockBegin
  2
*Paper_Space
 70
     0
 10
0.0
 20
0.0
 30
0.0
  3
*Paper_Space
  1

  0
ENDBLK
  5
1D
330
1B
100
AcDbEntity
 67
     1
  8
0
100
AcDbBlockEnd
  0
BLOCK
  5
24
330
23
100
AcDbEntity
 67
     1
  8
0
100
AcDbBlockBegin
  2
*Paper_Space0
 70
     0
 10
0.0
 20
0.0
 30
0.0
  3
*Paper_Space0
  1

  0
ENDBLK
  5
25
330
23
100
AcDbEntity
 67
     1
  8
0
100
AcDbBlockEnd
  0
BLOCK
  5
91B
330
919
100
AcDbEntity
  8
0
100
AcDbBlockBegin
  2
_DotSmall
 70
     0
 10
0.0
 20
0.0
 30
0.0
  3
_DotSmall
  1

  0
LWPOLYLINE
  5
91A
330
919
100
AcDbEntity
  8
0
  6
ByBlock
 62
     0
100
AcDbPolyline
 90
        2
 70
     1
 43
0.5
 10
-0.0625
 20
0.0
 42
1.0
 10
0.0625
 20
0.0
 42
1.0
  0
ENDBLK
  5
91C
330
919
100
AcDbEntity
  8
0
100
AcDbBlockEnd
  0
BLOCK
  5
92A
330
922
100
AcDbEntity
  8
0
100
AcDbBlockBegin
  2
base para cotas
 70
     0
 10
0.0
 20
0.0
 30
0.0
  3
base para cotas
  1

  0
LINE
  5
B36
330
922
100
AcDbEntity
  8
cotas
100
AcDbLine
 10
0.0
 20
-30.0
 30
0.0
 11
327.1260136525398
 21
-30.0
 31
0.0
  0
LINE
  5
B37
330
922
100
AcDbEntity
  8
cotas
100
AcDbLine
 10
0.0
 20
-25.0
 30
0.0
 11
327.1260136525398
 21
-25.0
 31
0.0
  0
LINE
  5
B38
330
922
100
AcDbEntity
  8
cotas
100
AcDbLine
 10
0.0
 20
-20.0
 30
0.0
 11
327.1260136525398
 21
-20.0
 31
0.0
  0
LINE
  5
B39
330
922
100
AcDbEntity
  8
cotas
100
AcDbLine
 10
0.0
 20
-15.0
 30
0.0
 11
327.1260136525398
 21
-15.0
 31
0.0
  0
LINE
  5
B3A
330
922
100
AcDbEntity
  8
cotas
100
AcDbLine
 10
0.0
 20
-10.0
 30
0.0
 11
327.1260136525398
 21
-10.0
 31
0.0
  0
LINE
  5
B3B
330
922
100
AcDbEntity
  8
cotas
100
AcDbLine
 10
0.0
 20
0.0
 30
0.0
 11
0.0
 21
-30.0
 31
0.0
  0
LINE
  5
B3C
330
922
100
AcDbEntity
  8
cotas
100
AcDbLine
 10
327.1260136525398
 20
-30.0
 30
0.0
 11
327.1260136525398
 21
0.0
 31
0.0
  0
ENDBLK
  5
92B
330
922
100
AcDbEntity
  8
0
100
AcDbBlockEnd
  0
BLOCK
  5
AAD
330
AA8
100
AcDbEntity
  8
0
100
AcDbBlockBegin
  2
_CLOSED
 70
     0
 10
0.0
 20
0.0
 30
0.0
  3
_CLOSED
  1

  0
LINE
  5
AA9
330
AA8
100
AcDbEntity
  8
0
100
AcDbLine
 10
-1.0
 20
0.166667
 30
0.0
 11
0.0
 21
0.0
 31
0.0
  0
LINE
  5
AAA
330
AA8
100
AcDbEntity
  8
0
100
AcDbLine
 10
0.0
 20
0.0
 30
0.0
 11
-1.0
 21
-0.166667
 31
0.0
  0
LINE
  5
AAB
330
AA8
100
AcDbEntity
  8
0
100
AcDbLine
 10
-1.0
 20
0.166667
 30
0.0
 11
-1.0
 21
-0.166667
 31
0.0
  0
LINE
  5
AAC
330
AA8
100
AcDbEntity
  8
0
100
AcDbLine
 10
0.0
 20
0.0
 30
0.0
 11
-1.0
 21
0.0
 31
0.0
  0
ENDBLK
  5
AAE
330
AA8
100
AcDbEntity
  8
0
100
AcDbBlockEnd
  0
ENDSEC
  0
SECTION
  2
ENTITIES
  0
ARC
  5
E14
330
1F
100
AcDbEntity
  8
SANINDUSA
100
AcDbCircle
 10
-16.73470655807632
 20
768.0220141216424
 30
0.0
 40
0.2000000000000001
100
AcDbArc
 50
282.0058639450767
 51
338.6840488567138
  0
ARC
  5
E15
330
1F
100
AcDbEntity
  8
SANINDUSA
100
AcDbCircle
 10
-16.73833441511573
 20
768.0220141216424
 30
0.0
 40
0.2
100
AcDbArc
 50
201.3159511432924
 51
249.100060323721
  0
CIRCLE
  5
E19
330
1F
100
AcDbEntity
  8
SANINDUSA
100
AcDbCircle
 10
-17.8574493376529
 20
767.9255819306032
 30
0.0
 40
0.0405434374637741
  0
CIRCLE
  5
E1C
330
1F
100
AcDbEntity
  8
SANINDUSA
100
AcDbCircle
 10
-17.8574493376529
 20
767.9255819306032
 30
0.0
 40
0.0235
  0
ARC
  5
E1E
330
1F
100
AcDbEntity
  8
SANINDUSA
100
AcDbCircle
 10
-17.8574493376529
 20
767.9255819306032
 30
0.0
 40
0.1797758558812064
100
AcDbArc
 50
131.7428676280595
 51
48.25713237193931
  0
CIRCLE
  5
E20
330
1F
100
AcDbEntity
  8
SANINDUSA
100
AcDbCircle
 10
-17.8574493376529
 20
767.9255819306032
 30
0.0
 40
0.2075
  0
LWPOLYLINE
  5
E24
330
1F
100
AcDbEntity
  8
SANINDUSA
100
AcDbPolyline
 90
       17
 70
   128
 43
0.0
 10
-17.74922307326583
 20
768.069669116037
 10
-17.75740243921184
 20
768.0754549795738
 10
-17.7658895560513
 20
768.0807792591331
 10
-17.77929526405266
 20
768.0879262314442
 10
-17.79330435462556
 20
768.0939423554079
 10
-17.80776625736395
 20
768.0987693858021
 10
-17.82253040186182
 20
768.1023490774048
 10
-17.83754113780358
 20
768.1046516779757
 10
-17.85274680878865
 20
768.105685657959
 10
-17.86798571682847
 20
768.1054467243954
 10
-17.8830961639345
 20
768.1039305843251
 10
-17.89799735238693
 20
768.1011328560039
 10
-17.91266277888768
 20
768.097078356577
 10
-17.92693979575988
 20
768.0918170026383
 10
-17.94067575532661
 20
768.0853987107812
 10
-17.95349700782099
 20
768.0780445462926
 10
-17.96567560203996
 20
768.069669116037
  0
LWPOLYLINE
  5
E27
330
1F
100
AcDbEntity
  8
SANINDUSA
100
AcDbPolyline
 90
       17
 70
   128
 43
0.0
 10
-17.75029906034171
 20
768.0568985484561
 10
-17.75648155881869
 20
768.0524897856836
 10
-17.76929803979156
 20
768.0445341459474
 10
-17.78278638520362
 20
768.0376596520745
 10
-17.79680099828854
 20
768.031933094951
 10
-17.81119628227995
 20
768.0274212654623
 10
-17.82592465351904
 20
768.0241555108619
 10
-17.84092905698958
 20
768.0221325521279
 10
-17.85604992987252
 20
768.0213671763781
 10
-17.8711277093488
 20
768.02187417073
 10
-17.88610374230133
 20
768.0236667500525
 10
-17.90092872448067
 20
768.0267228468641
 10
-17.91544732554853
 20
768.0310035755138
 10
-17.92950421516664
 20
768.0364700503511
 10
-17.94170035834195
 20
768.0423866186628
 10
-17.95343228083623
 20
768.0492156167611
 10
-17.9645996149641
 20
768.0568985484561
  0
LWPOLYLINE
  5
E28
330
1F
100
AcDbEntity
  8
SANINDUSA
100
AcDbPolyline
 90
       19
 70
   128
 43
0.0
 10
-17.8835606507251
 20
768.0121228691664
 10
-17.87352053330148
 20
768.0107591828473
 10
-17.86322850412642
 20
768.0100373943205
 10
-17.8528924566015
 20
768.0099896313606
 10
-17.84265923628677
 20
768.0106313564444
 10
-17.83259145180247
 20
768.0119218466999
 10
-17.82288011612717
 20
768.0138057602395
 10
-17.8134476200281
 20
768.016283700334
 10
-17.80452432904438
 20
768.0192409598372
 10
-17.79622101822482
 20
768.0225730329611
 10
-17.78771881908604
 20
768.0266384471857
 10
-17.78002031295083
 20
768.030959019254
 10
-17.77316521665268
 20
768.0354029028681
 10
-17.76775260458874
 20
768.03938863228
 10
-17.76296264062013
 20
768.043343042813
 10
-17.75878510588085
 20
768.0472023653063
 10
-17.75520978150495
 20
768.0509028305992
 10
-17.75254310361874
 20
768.0539892907134
 10
-17.7502990603417
 20
768.0568985484561
  0
LWPOLYLINE
  5
E36
330
1F
100
AcDbEntity
  8
SANINDUSA
100
AcDbPolyline
 90
        5
 70
   128
 43
0.0
 10
-17.9507271315342
 20
768.0423023122093
 10
-17.94733092627889
 20
768.0395334315043
 10
-17.94361431608293
 20
768.0367360080168
 10
-17.93954476489727
 20
768.0339157085819
 10
-17.935133303142
 20
768.0311114437893
  0
LWPOLYLINE
  5
E37
330
1F
100
AcDbEntity
  8
SANINDUSA
100
AcDbPolyline
 90
        5
 70
   128
 43
0.0
 10
-17.9645996149641
 20
768.0568985484561
 10
-17.96202160700227
 20
768.0535837114133
 10
-17.95888372367511
 20
768.0500310436266
 10
-17.95512224513927
 20
768.0462463672657
 10
-17.9507271315342
 20
768.0423023122093
  0
LWPOLYLINE
  5
E39
330
1F
100
AcDbEntity
  8
SANINDUSA
100
AcDbPolyline
 90
        5
 70
   128
 43
0.0
 10
-17.96869609172304
 20
768.0672704843346
 10
-17.97091273745793
 20
768.0654412919015
 10
-17.97305964351564
 20
768.0636170379102
 10
-17.97515259721393
 20
768.0617574348127
 10
-17.97714208704994
 20
768.0597199345379
  0
LWPOLYLINE
  5
E3C
330
1F
100
AcDbEntity
  8
SANINDUSA
100
AcDbPolyline
 90
        9
 70
   128
 43
0.0
 10
-17.9645996149641
 20
768.0568985484561
 10
-17.96597656813883
 20
768.0576496013145
 10
-17.96748227380182
 20
768.0581534342679
 10
-17.96907404026537
 20
768.0583957620017
 10
-17.97070673573618
 20
768.0583697137308
 10
-17.97233406794953
 20
768.058076028009
 10
-17.9739098967066
 20
768.0575230317885
 10
-17.97538954210029
 20
768.0567264043238
 10
-17.9767310513369
 20
768.0557087326128
  0
LINE
  5
E44
330
1F
100
AcDbEntity
  8
SANINDUSA
100
AcDbLine
 10
-17.96567560203996
 20
768.069669116037
 30
0.0
 11
-17.96869609172304
 21
768.0672704843346
 31
0.0
  0
LWPOLYLINE
  5
E46
330
1F
100
AcDbEntity
  8
SANINDUSA
100
AcDbPolyline
 90
        8
 70
   128
 43
0.0
 10
-17.935133303142
 20
768.0311114437893
 10
-17.93502805999276
 20
768.0310475183341
 10
-17.92928426928177
 20
768.0277531824211
 10
-17.92306281715864
 20
768.0245820904401
 10
-17.91619846913571
 20
768.0215150577191
 10
-17.90885862557756
 20
768.0186900867184
 10
-17.90177986800278
 20
768.0163780722676
 10
-17.8943627401526
 20
768.0143604754184
  0
LWPOLYLINE
  5
E48
330
1F
100
AcDbEntity
  8
SANINDUSA
100
AcDbPolyline
 90
       31
 70
   128
 43
0.0
 10
-17.9240789599254
 20
768.0302394711511
 10
-17.92476514998172
 20
768.030710196254
 10
-17.92529534577326
 20
768.0311760121719
 10
-17.92550947524789
 20
768.0315284156306
 10
-17.92539623200711
 20
768.0317531264671
 10
-17.92496200113695
 20
768.0318453034225
 10
-17.92421927468398
 20
768.0318022449917
 10
-17.92319017648658
 20
768.0316316467042
 10
-17.92190764281827
 20
768.0313433099728
 10
-17.92040480145115
 20
768.0309518668579
 10
-17.91691055312741
 20
768.0299276127063
 10
-17.91308433086411
 20
768.0287055085735
 10
-17.90935104674468
 20
768.0274316294066
 10
-17.90613748971457
 20
768.026231851248
 10
-17.90454979360187
 20
768.0255584341381
 10
-17.90359148475106
 20
768.0250843811209
 10
-17.90293376005283
 20
768.0246747694926
 10
-17.90260080111924
 20
768.0243387128853
 10
-17.90259608447794
 20
768.0240820856174
 10
-17.90292594390234
 20
768.0239117600063
 10
-17.90357581300024
 20
768.0238342677131
 10
-17.90453866634248
 20
768.0238563054005
 10
-17.90577779489864
 20
768.0239813747236
 10
-17.9072621065942
 20
768.0242129793957
 10
-17.90894367116545
 20
768.0245486649749
 10
-17.91075710747238
 20
768.0249810297697
 10
-17.9126630083765
 20
768.0255030920003
 10
-17.91647471878195
 20
768.0267457379691
 10
-17.91997722821199
 20
768.0281377479477
 10
-17.92283979373323
 20
768.0295193534157
 10
-17.9240789599254
 20
768.0302394711511
  0
LWPOLYLINE
  5
E4D
330
1F
100
AcDbEntity
  8
SANINDUSA
100
AcDbPolyline
 90
        3
 70
   128
 43
0.0
 10
-17.8943627401526
 20
768.0143604754184
 10
-17.88903568182907
 20
768.0131558602982
 10
-17.8835606507251
 20
768.0121228691664
  0
LWPOLYLINE
  5
E53
330
1F
100
AcDbEntity
  8
SANINDUSA
100
AcDbPolyline
 90
       45
 70
   128
 43
0.0
 10
-17.8574493376529
 20
768.0507501321669
 10
-17.85495882798312
 20
768.0509281958951
 10
-17.85251901790817
 20
768.0514587622156
 10
-17.85017957492536
 20
768.0523310303282
 10
-17.84798812334743
 20
768.0535272433695
 10
-17.84598927480885
 20
768.0550230498917
 10
-17.8442237201017
 20
768.0567879995873
 10
-17.84272740082835
 20
768.0587861631704
 10
-17.84153077773419
 20
768.0609768637927
 10
-17.84065821061465
 20
768.0633155051067
 10
-17.84012746241998
 20
768.0657544791197
 10
-17.8399493376529
 20
768.068244135354
 10
-17.84012746241998
 20
768.0707337915884
 10
-17.84065821061465
 20
768.0731727656014
 10
-17.84153077773419
 20
768.0755114069154
 10
-17.84272740082835
 20
768.0777021075376
 10
-17.8442237201017
 20
768.0797002711208
 10
-17.84598927480885
 20
768.0814652208164
 10
-17.84798812334743
 20
768.0829610273385
 10
-17.85017957492536
 20
768.0841572403798
 10
-17.85251901790817
 20
768.0850295084924
 10
-17.85495882798312
 20
768.0855600748129
 10
-17.8574493376529
 20
768.0857381385411
 10
-17.85993984732268
 20
768.0855600748129
 10
-17.86237965739762
 20
768.0850295084924
 10
-17.86471910038043
 20
768.0841572403798
 10
-17.86691055195837
 20
768.0829610273385
 10
-17.86890940049694
 20
768.0814652208164
 10
-17.8706749552041
 20
768.0797002711208
 10
-17.87217127447744
 20
768.0777021075376
 10
-17.8733678975716
 20
768.0755114069154
 10
-17.87424046469115
 20
768.0731727656014
 10
-17.87477121288582
 20
768.0707337915884
 10
-17.8749493376529
 20
768.068244135354
 10
-17.87477121288582
 20
768.0657544791197
 10
-17.87424046469115
 20
768.0633155051067
 10
-17.8733678975716
 20
768.0609768637927
 10
-17.87217127447744
 20
768.0587861631704
 10
-17.8706749552041
 20
768.0567879995873
 10
-17.86890940049694
 20
768.0550230498917
 10
-17.86691055195837
 20
768.0535272433695
 10
-17.86471910038043
 20
768.0523310303282
 10
-17.86237965739762
 20
768.0514587622156
 10
-17.85993984732268
 20
768.0509281958951
 10
-17.8574493376529
 20
768.0507501321669
  0
LINE
  5
E5D
330
1F
100
AcDbEntity
  8
SANINDUSA
100
AcDbLine
 10
-16.77993677479381
 20
767.8263888582709
 30
0.0
 11
-16.69310419839825
 21
767.8263888582709
 31
0.0
  0
LINE
  5
E60
330
1F
100
AcDbEntity
  8
SANINDUSA
100
AcDbLine
 10
-16.70348588112226
 20
767.7882557726781
 30
0.0
 11
-16.7695550920698
 21
767.7882557726781
 31
0.0
  0
ARC
  5
E61
330
1F
100
AcDbEntity
  8
SANINDUSA
100
AcDbCircle
 10
-16.78201689277771
 20
767.8166075951022
 30
0.0
 40
0.01
100
AcDbArc
 50
1.000000000034346
 51
77.99413605492329
  0
LWPOLYLINE
  5
E63
330
1F
100
AcDbEntity
  8
SANINDUSA
100
AcDbPolyline
 90
       12
 70
   128
 43
0.0
 10
-16.80968181826464
 20
767.8351731516602
 10
-16.80908844067824
 20
767.8342823468754
 10
-16.80553678423966
 20
767.8293800696727
 10
-16.80186772688186
 20
767.824733585276
 10
-16.79808644120314
 20
767.820352192478
 10
-16.79419873529171
 20
767.8162450598218
 10
-16.7902111577086
 20
767.8124211237825
 10
-16.7861310768147
 20
767.8088889328298
 10
-16.78196670936879
 20
767.8056564385616
 10
-16.77772707298474
 20
767.8027307484541
 10
-16.77342184494676
 20
767.8001178710836
 10
-16.77171182882144
 20
767.7992177614304
  0
LINE
  5
E65
330
1F
100
AcDbEntity
  8
SANINDUSA
100
AcDbLine
 10
-16.77171182882144
 20
767.7992177614304
 30
0.0
 11
-16.77155478746011
 21
767.7902208678652
 31
0.0
  0
ARC
  5
E66
330
1F
100
AcDbEntity
  8
SANINDUSA
100
AcDbCircle
 10
-16.7695550920698
 20
767.7902557726781
 30
0.0
 40
0.0019999999999999
100
AcDbArc
 50
181.000000000145
 51
270.0
  0
LINE
  5
E67
330
1F
100
AcDbEntity
  8
SANINDUSA
100
AcDbLine
 10
-16.77201841582615
 20
767.8167821191666
 30
0.0
 11
-16.77171604556148
 21
767.7992199810168
 31
0.0
  0
ARC
  5
E68
330
1F
100
AcDbEntity
  8
SANINDUSA
100
AcDbCircle
 10
-16.73833441511574
 20
768.0220141216424
 30
0.0
 40
0.1999999999999978
100
AcDbArc
 50
249.100060323721
 51
257.9941360549246
  0
ARC
  5
E69
330
1F
100
AcDbEntity
  8
SANINDUSA
100
AcDbCircle
 10
-16.69102408041434
 20
767.8166075951022
 30
0.0
 40
0.0099999999999999
100
AcDbArc
 50
102.0058639450754
 51
178.9999999999852
  0
LINE
  5
E6A
330
1F
100
AcDbEntity
  8
SANINDUSA
100
AcDbLine
 10
-16.70148618573195
 20
767.7902208678652
 30
0.0
 11
-16.70102255736591
 21
767.8167821191666
 31
0.0
  0
ARC
  5
E6B
330
1F
100
AcDbEntity
  8
SANINDUSA
100
AcDbCircle
 10
-16.70348588112226
 20
767.7902557726781
 30
0.0
 40
0.0019999999999999
100
AcDbArc
 50
270.0
 51
358.9999999998549
  0
LWPOLYLINE
  5
E6D
330
1F
100
AcDbEntity
  8
SANINDUSA
100
AcDbPolyline
 90
        5
 70
   128
 43
0.0
 10
-17.73775658825586
 20
768.0597199345379
 10
-17.73971726044857
 20
768.0617305169911
 10
-17.74180288343419
 20
768.063585914035
 10
-17.74394769293263
 20
768.0654091593956
 10
-17.74620258358274
 20
768.0672704843346
  0
LWPOLYLINE
  5
E6F
330
1F
100
AcDbEntity
  8
SANINDUSA
100
AcDbPolyline
 90
        9
 70
   128
 43
0.0
 10
-17.7381676239689
 20
768.0557087326128
 10
-17.7395091332055
 20
768.0567264043238
 10
-17.74098877859919
 20
768.0575230317885
 10
-17.74256460735627
 20
768.058076028009
 10
-17.74419193956962
 20
768.0583697137308
 10
-17.74582463504042
 20
768.0583957620017
 10
-17.74741640150398
 20
768.0581534342679
 10
-17.74892210716697
 20
768.0576496013145
 10
-17.75029906034171
 20
768.0568985484561
  0
LINE
  5
E71
330
1F
100
AcDbEntity
  8
SANINDUSA
100
AcDbLine
 10
-17.74620258358274
 20
768.0672704843346
 30
0.0
 11
-17.74922307326583
 21
768.069669116037
 31
0.0
  0
LINE
  5
E7D
330
1F
100
AcDbEntity
  8
SANINDUSA
100
AcDbLine
 10
-16.73652048659603
 20
767.963255772678
 30
0.0
 11
-16.53902048659603
 21
767.963255772678
 31
0.0
  0
LINE
  5
E7E
330
1F
100
AcDbEntity
  8
SANINDUSA
100
AcDbLine
 10
-16.52902048659603
 20
767.9512557726781
 30
0.0
 11
-16.94402048659603
 21
767.9512557726781
 31
0.0
  0
LINE
  5
E81
330
1F
100
AcDbEntity
  8
SANINDUSA
100
AcDbLine
 10
-16.93402048659603
 20
767.963255772678
 30
0.0
 11
-16.73652048659603
 21
767.963255772678
 31
0.0
  0
LINE
  5
E82
330
1F
100
AcDbEntity
  8
SANINDUSA
100
AcDbLine
 10
-16.94402048659603
 20
767.953255772678
 30
0.0
 11
-16.94402048659603
 21
767.9512557726781
 31
0.0
  0
ARC
  5
E83
330
1F
100
AcDbEntity
  8
SANINDUSA
100
AcDbCircle
 10
-16.93402048659603
 20
767.953255772678
 30
0.0
 40
0.01
100
AcDbArc
 50
90.0
 51
180.0
  0
ARC
  5
E84
330
1F
100
AcDbEntity
  8
SANINDUSA
100
AcDbCircle
 10
-16.93188831841564
 20
767.9464885249126
 30
0.0
 40
0.0077672477654273
100
AcDbArc
 50
21.31595114328623
 51
37.86207830877909
  0
ARC
  5
E85
330
1F
100
AcDbEntity
  8
SANINDUSA
100
AcDbCircle
 10
-16.54115265477642
 20
767.9464885249126
 30
0.0
 40
0.0077672477654275
100
AcDbArc
 50
142.1379216912145
 51
158.6840488567137
  0
LINE
  5
E86
330
1F
100
AcDbEntity
  8
SANINDUSA
100
AcDbLine
 10
-16.52902048659603
 20
767.9512557726781
 30
0.0
 11
-16.52902048659603
 21
767.953255772678
 31
0.0
  0
ARC
  5
E87
330
1F
100
AcDbEntity
  8
SANINDUSA
100
AcDbCircle
 10
-16.53902048659603
 20
767.953255772678
 30
0.0
 40
0.01
100
AcDbArc
 50
0.0
 51
90.0
  0
LWPOLYLINE
  5
E8E
330
1F
100
AcDbEntity
  8
SANINDUSA
100
AcDbPolyline
 90
       29
 70
   128
 43
0.0
 10
-17.43247337914835
 20
767.9459545830463
 10
-17.43092576248414
 20
767.9388129871965
 10
-17.42898430309016
 20
767.9311454098424
 10
-17.4267840341162
 20
767.923573424043
 10
-17.42432831966534
 20
767.9161089589991
 10
-17.42162092503649
 20
767.9087637913525
 10
-17.41866601384622
 20
767.9015495275329
 10
-17.41546814474027
 20
767.8944775858091
 10
-17.41203226766706
 20
767.8875591781135
 10
-17.40836371964011
 20
767.880805291613
 10
-17.40446821989745
 20
767.874226669988
 10
-17.40035186434601
 20
767.8678337944077
 10
-17.39602111915969
 20
767.8616368641984
 10
-17.39148281338289
 20
767.8556457772364
 10
-17.38674413037872
 20
767.8498701101216
 10
-17.38181259795558
 20
767.8443190982346
 10
-17.37669607701022
 20
767.8390016158223
 10
-17.37140274854209
 20
767.8339261563097
 10
-17.36594109892519
 20
767.8291008130843
 10
-17.36031990337133
 20
767.8245332610472
 10
-17.35454820758261
 20
767.8202307392641
 10
-17.34863530766972
 20
767.8162000350726
 10
-17.34259072850289
 20
767.8124474700066
 10
-17.33642420075829
 20
767.8089788878775
 10
-17.33014563701676
 20
767.805799645302
 10
-17.32376510735569
 20
767.8029146048893
 10
-17.31729281493811
 20
767.8003281311923
 10
-17.3107390721382
 20
767.7980440894044
 10
-17.30465820029899
 20
767.7962282684128
  0
ARC
  5
E8F
330
1F
100
AcDbEntity
  8
SANINDUSA
100
AcDbCircle
 10
-17.26571258383258
 20
768.0220141216424
 30
0.0
 40
0.2000000000000001
100
AcDbArc
 50
282.0058639450767
 51
338.6840488567138
  0
LWPOLYLINE
  5
E91
330
1F
100
AcDbEntity
  8
SANINDUSA
100
AcDbPolyline
 90
       10
 70
   128
 43
0.0
 10
-17.38115555387291
 20
767.8879408883267
 10
-17.37105919692765
 20
767.8762486121525
 10
-17.36018013620716
 20
767.865564931219
 10
-17.35230329065062
 20
767.8588614310152
 10
-17.34411252634964
 20
767.8526839903578
 10
-17.33564785798549
 20
767.8470625180429
 10
-17.32339702993758
 20
767.8401654189237
 10
-17.31073048153973
 20
767.8344219245738
 10
-17.29738060473177
 20
767.8297668041898
 10
-17.28376751961008
 20
767.8263888582709
  0
LINE
  5
E93
330
1F
100
AcDbEntity
  8
SANINDUSA
100
AcDbLine
 10
-16.23108666810765
 20
767.8360033016965
 30
0.0
 11
-16.1499997931801
 21
767.8360033016965
 31
0.0
  0
LINE
  5
E94
330
1F
100
AcDbEntity
  8
SANINDUSA
100
AcDbLine
 10
-16.23052552305365
 20
767.8216023286498
 30
0.0
 11
-16.22797151699137
 21
767.811442628139
 31
0.0
  0
ARC
  5
E95
330
1F
100
AcDbEntity
  8
SANINDUSA
100
AcDbCircle
 10
-16.23312506331523
 20
767.8262132585415
 30
0.0
 40
0.0100000000000001
100
AcDbArc
 50
49.99999999999985
 51
78.2384258669379
  0
LINE
  5
E96
330
1F
100
AcDbEntity
  8
SANINDUSA
100
AcDbLine
 10
-16.3330676277683
 20
767.9632557726781
 30
0.0
 11
-15.99952767408721
 21
767.9632557726781
 31
0.0
  0
LINE
  5
EA5
330
1F
100
AcDbEntity
  8
SANINDUSA
100
AcDbLine
 10
-17.23449190695481
 20
767.7882557726781
 30
0.0
 11
-17.30056111782605
 21
767.7882557726781
 31
0.0
  0
LINE
  5
EA7
330
1F
100
AcDbEntity
  8
SANINDUSA
100
AcDbLine
 10
-17.28376751961008
 20
767.8263888582709
 30
0.0
 11
-17.2241102241545
 21
767.8263888582709
 31
0.0
  0
LWPOLYLINE
  5
EA8
330
1F
100
AcDbEntity
  8
SANINDUSA
100
AcDbPolyline
 90
        6
 70
   128
 43
0.0
 10
-17.28376751961008
 20
767.8263888582709
 10
-17.28215964125864
 20
767.8255922487692
 10
-17.28038037428228
 20
767.8236316911586
 10
-17.27949028526465
 20
767.821683787681
 10
-17.27898251039143
 20
767.8193391757608
 10
-17.27892201298255
 20
767.8167821191666
  0
LWPOLYLINE
  5
EAB
330
1F
100
AcDbEntity
  8
SANINDUSA
100
AcDbPolyline
 90
        4
 70
   128
 43
0.0
 10
-17.29242484278309
 20
767.7914618397896
 10
-17.29606456576897
 20
767.7916824318927
 10
-17.29903717069999
 20
767.791647275461
 10
-17.30062147824204
 20
767.7914618397896
  0
LWPOLYLINE
  5
EAD
330
1F
100
AcDbEntity
  8
SANINDUSA
100
AcDbPolyline
 90
        5
 70
   128
 43
0.0
 10
-17.30465820029899
 20
767.7962282684128
 10
-17.30424092725476
 20
767.7960711381152
 10
-17.30333979582222
 20
767.7955345619916
 10
-17.30278888614125
 20
767.7949694112047
 10
-17.30263958211569
 20
767.7947335350852
  0
LWPOLYLINE
  5
EAE
330
1F
100
AcDbEntity
  8
SANINDUSA
100
AcDbPolyline
 90
        5
 70
   128
 43
0.0
 10
-17.30062147824204
 20
767.7914618397896
 10
-17.30147700902493
 20
767.7916199027255
 10
-17.30197469014129
 20
767.7922001554308
 10
-17.30232424867929
 20
767.7931478126782
 10
-17.30248143411535
 20
767.794440475031
  0
ARC
  5
EAF
330
1F
100
AcDbEntity
  8
SANINDUSA
100
AcDbCircle
 10
-17.30056111782605
 20
767.7902557726781
 30
0.0
 40
0.0019999999999999
100
AcDbArc
 50
181.000000000145
 51
270.0
  0
LINE
  5
EB0
330
1F
100
AcDbEntity
  8
SANINDUSA
100
AcDbLine
 10
-17.30263958211569
 20
767.7947335350852
 30
0.0
 11
-17.30256081321637
 21
767.7902208678652
 31
0.0
  0
LWPOLYLINE
  5
EB4
330
1F
100
AcDbEntity
  8
SANINDUSA
100
AcDbPolyline
 90
       10
 70
   128
 43
0.0
 10
-17.2807155577716
 20
767.8031655658629
 10
-17.28083871733334
 20
767.8023705753802
 10
-17.28146955797614
 20
767.8000498004865
 10
-17.28245984955584
 20
767.7978909101116
 10
-17.28382398359354
 20
767.7958904183117
 10
-17.28544623684528
 20
767.7941982846114
 10
-17.28715578923707
 20
767.7929268816392
 10
-17.28895071929208
 20
767.792022897608
 10
-17.29071721889827
 20
767.7915357773947
 10
-17.29242484278309
 20
767.7914618397896
  0
LINE
  5
EB9
330
1F
100
AcDbEntity
  8
SANINDUSA
100
AcDbLine
 10
-17.27892201298255
 20
767.8167821191666
 30
0.0
 11
-17.2807155577716
 21
767.8031655658629
 31
0.0
  0
ARC
  5
EBB
330
1F
100
AcDbEntity
  8
SANINDUSA
100
AcDbCircle
 10
-17.2220301061706
 20
767.8166075951022
 30
0.0
 40
0.0099999999999999
100
AcDbArc
 50
102.0058639450754
 51
178.9999999999852
  0
LINE
  5
EBF
330
1F
100
AcDbEntity
  8
SANINDUSA
100
AcDbLine
 10
-17.2324922114882
 20
767.7902208678652
 30
0.0
 11
-17.23202858312216
 21
767.8167821191666
 31
0.0
  0
ARC
  5
EC0
330
1F
100
AcDbEntity
  8
SANINDUSA
100
AcDbCircle
 10
-17.23449190687851
 20
767.7902557726781
 30
0.0
 40
0.0019999999999999
100
AcDbArc
 50
270.0
 51
358.9999999998549
  0
LINE
  5
EC5
330
1F
100
AcDbEntity
  8
SANINDUSA
100
AcDbLine
 10
-16.2863128658658
 20
767.9491630824786
 30
0.0
 11
-16.27488452365845
 21
767.8560867044446
 31
0.0
  0
LWPOLYLINE
  5
EC7
330
1F
100
AcDbEntity
  8
SANINDUSA
100
AcDbPolyline
 90
       29
 70
   128
 43
0.0
 10
-16.33594252959925
 20
767.9451934692353
 10
-16.33370847652332
 20
767.9391189104697
 10
-16.33106999824801
 20
767.9322761052073
 10
-16.32833547095689
 20
767.9256072383839
 10
-16.32553176738065
 20
767.9191390683039
 10
-16.3226846185627
 20
767.9128940112531
 10
-16.31981794703227
 20
767.9068898504912
 10
-16.31695342523257
 20
767.9011398203459
 10
-16.31411024352266
 20
767.8956529512085
 10
-16.31130505796791
 20
767.8904345813267
 10
-16.30855207508446
 20
767.885486948717
 10
-16.30586322878297
 20
767.8808097951643
 10
-16.30325579025051
 20
767.8764097470217
 10
-16.30080416719253
 20
767.8723798195068
 10
-16.29844784427964
 20
767.8685965053017
 10
-16.29621411492433
 20
767.8650860355013
 10
-16.29412081580864
 20
767.8618597611806
 10
-16.29218243335998
 20
767.8589247039987
 10
-16.29041077856336
 20
767.8562848170656
 10
-16.28884850932266
 20
767.85398807764
 10
-16.28741649003609
 20
767.8519074372125
 10
-16.28614337227612
 20
767.8500780971766
 10
-16.28504048769308
 20
767.8485095467016
 10
-16.2841177715599
 20
767.8472092575783
 10
-16.28338428009839
 20
767.8461835429019
 10
-16.28285021251465
 20
767.8454405093003
 10
-16.28253182367621
 20
767.8449972683444
 10
-16.28242964657264
 20
767.8448539546296
 10
-16.28241336846561
 20
767.8448361616358
  0
LINE
  5
EC8
330
1F
100
AcDbEntity
  8
SANINDUSA
100
AcDbLine
 10
-16.29550326197064
 20
767.9419577616855
 30
0.0
 11
-16.28412976979937
 21
767.8493281013469
 31
0.0
  0
LWPOLYLINE
  5
EC9
330
1F
100
AcDbEntity
  8
SANINDUSA
100
AcDbPolyline
 90
        4
 70
   128
 43
0.0
 10
-16.23229022366975
 20
767.8244083625208
 10
-16.2337627273259
 20
767.8254935378454
 10
-16.23542458784429
 20
767.8263667105629
 10
-16.23859291537653
 20
767.8274318643643
  0
ARC
  5
ECA
330
1F
100
AcDbEntity
  8
SANINDUSA
100
AcDbCircle
 10
-16.19235715916358
 20
768.0220141216424
 30
0.0
 40
0.2
100
AcDbArc
 50
244.4832800638369
 51
256.6335185562155
  0
LWPOLYLINE
  5
ECB
330
1F
100
AcDbEntity
  8
SANINDUSA
100
AcDbPolyline
 90
        3
 70
   128
 43
0.0
 10
-16.23052552305363
 20
767.8216023286498
 10
-16.23128417996951
 20
767.8232648773046
 10
-16.23229022366975
 20
767.8244083625208
  0
ARC
  5
ECC
330
1F
100
AcDbEntity
  8
SANINDUSA
100
AcDbCircle
 10
-16.26495906214204
 20
767.8573053978786
 30
0.0
 40
0.0100000000000003
100
AcDbArc
 50
187.000000000006
 51
246.2126107084345
  0
ARC
  5
ECE
330
1F
100
AcDbEntity
  8
SANINDUSA
100
AcDbCircle
 10
-16.27420430828296
 20
767.8505467947809
 30
0.0
 40
0.0100000000000001
100
AcDbArc
 50
186.9999999999994
 51
244.4832800638369
  0
ARC
  5
ECF
330
1F
100
AcDbEntity
  8
SANINDUSA
100
AcDbCircle
 10
-16.19235715916358
 20
768.0220141216424
 30
0.0
 40
0.19
100
AcDbArc
 50
246.2126107084359
 51
258.2384258669379
  0
LINE
  5
ED4
330
1F
100
AcDbEntity
  8
SANINDUSA
100
AcDbLine
 10
-16.39804323064388
 20
767.9512557726781
 30
0.0
 11
-16.39204323064388
 21
767.9512557726781
 31
0.0
  0
ARC
  5
ED5
330
1F
100
AcDbEntity
  8
SANINDUSA
100
AcDbCircle
 10
-16.38804323064388
 20
767.953255772678
 30
0.0
 40
0.0100000000000002
100
AcDbArc
 50
90.0
 51
180.0
  0
LINE
  5
ED9
330
1F
100
AcDbEntity
  8
SANINDUSA
100
AcDbLine
 10
-16.39804323064388
 20
767.953255772678
 30
0.0
 11
-16.39804323064388
 21
767.9512557726781
 31
0.0
  0
LINE
  5
EDE
330
1F
100
AcDbEntity
  8
SANINDUSA
100
AcDbLine
 10
-16.30033510798731
 20
767.9463467015933
 30
0.0
 11
-16.31394771009249
 21
767.9467031601244
 31
0.0
  0
LINE
  5
EDF
330
1F
100
AcDbEntity
  8
SANINDUSA
100
AcDbLine
 10
-16.29404381949247
 20
767.9561853863312
 30
0.0
 11
-16.31468559793439
 21
767.9567259103225
 31
0.0
  0
LINE
  5
EE1
330
1F
100
AcDbEntity
  8
SANINDUSA
100
AcDbLine
 10
-16.35167291895848
 20
767.9576944574099
 30
0.0
 11
-16.36451682900033
 21
767.9580307870309
 31
0.0
  0
LINE
  5
EE3
330
1F
100
AcDbEntity
  8
SANINDUSA
100
AcDbLine
 10
-16.37849282090339
 20
767.9632557726781
 30
0.0
 11
-16.34133177506126
 21
767.9632557726781
 31
0.0
  0
LINE
  5
EE4
330
1F
100
AcDbEntity
  8
SANINDUSA
100
AcDbLine
 10
-16.31394771009249
 20
767.9467031601244
 30
0.0
 11
-16.35293434576654
 21
767.9477240611085
 31
0.0
  0
ARC
  5
EE5
330
1F
100
AcDbEntity
  8
SANINDUSA
100
AcDbCircle
 10
-16.35288199186992
 20
767.9497233757585
 30
0.0
 40
0.0020000000000001
100
AcDbArc
 50
268.5000000000006
 51
358.4999999998474
  0
LINE
  5
EE6
330
1F
100
AcDbEntity
  8
SANINDUSA
100
AcDbLine
 10
-16.35293434576654
 20
767.9477240611085
 30
0.0
 11
-16.37452475670077
 21
767.9482894259158
 31
0.0
  0
ARC
  5
EE7
330
1F
100
AcDbEntity
  8
SANINDUSA
100
AcDbCircle
 10
-16.37849282090339
 20
767.9512557726781
 30
0.0
 40
0.0120000000000002
100
AcDbArc
 50
49.67135667332507
 51
90.0
  0
LINE
  5
EE8
330
1F
100
AcDbEntity
  8
SANINDUSA
100
AcDbLine
 10
-16.39204323064388
 20
767.9512557726781
 30
0.0
 11
-16.3797788942831
 21
767.9512557726781
 31
0.0
  0
LINE
  5
EE9
330
1F
100
AcDbEntity
  8
SANINDUSA
100
AcDbLine
 10
-16.37849282090339
 20
767.9632557726781
 30
0.0
 11
-16.38804323064388
 21
767.9632557726781
 31
0.0
  0
ARC
  5
EEA
330
1F
100
AcDbEntity
  8
SANINDUSA
100
AcDbCircle
 10
-16.38591106246349
 20
767.9464885249126
 30
0.0
 40
0.0077672477654273
100
AcDbArc
 50
21.31595114329243
 51
142.1379216912209
  0
ARC
  5
EEB
330
1F
100
AcDbEntity
  8
SANINDUSA
100
AcDbCircle
 10
-16.37426298721769
 20
767.9582859991655
 30
0.0
 40
0.01
100
AcDbArc
 50
243.8183516288356
 51
268.5000000000006
  0
ARC
  5
EEC
330
1F
100
AcDbEntity
  8
SANINDUSA
100
AcDbCircle
 10
-16.36425505951726
 20
767.9680273602807
 30
0.0
 40
0.01
100
AcDbArc
 50
229.6713566733294
 51
268.5000000000006
  0
LINE
  5
EF0
330
1F
100
AcDbEntity
  8
SANINDUSA
100
AcDbLine
 10
-16.35167291895848
 20
767.9576944574099
 30
0.0
 11
-16.31468559793439
 21
767.9567259103225
 31
0.0
  0
LWPOLYLINE
  5
EF7
330
1F
100
AcDbEntity
  8
SANINDUSA
100
AcDbPolyline
 90
        6
 70
   128
 43
0.0
 10
-16.33853091029285
 20
767.9473373078174
 10
-16.33816897413674
 20
767.9472911094166
 10
-16.33749362932503
 20
767.9470366031006
 10
-16.3367103947446
 20
767.9464599570924
 10
-16.3361055215855
 20
767.9456456037497
 10
-16.33594252959925
 20
767.9451934692353
  0
LINE
  5
EFA
330
1F
100
AcDbEntity
  8
SANINDUSA
100
AcDbLine
 10
-16.33995502082165
 20
767.9632557726781
 30
0.0
 11
-16.3330676277683
 21
767.9632557726781
 31
0.0
  0
LINE
  5
EFD
330
1F
100
AcDbEntity
  8
SANINDUSA
100
AcDbLine
 10
-16.35069943858182
 20
767.9566686231367
 30
0.0
 11
-16.35088267721997
 21
767.9496710218618
 31
0.0
  0
ARC
  5
EFE
330
1F
100
AcDbEntity
  8
SANINDUSA
100
AcDbCircle
 10
-16.35169909590679
 20
767.9566948000849
 30
0.0
 40
0.0010000000000001
100
AcDbArc
 50
358.4999999993717
 51
88.49999999999075
  0
LINE
  5
F00
330
1F
100
AcDbEntity
  8
SANINDUSA
100
AcDbLine
 10
-16.31589467084583
 20
767.9487548286711
 30
0.0
 11
-16.31571143220767
 21
767.9557524299458
 31
0.0
  0
ARC
  5
F01
330
1F
100
AcDbEntity
  8
SANINDUSA
100
AcDbCircle
 10
-16.3147117748827
 20
767.9557262529975
 30
0.0
 40
0.0010000000000001
100
AcDbArc
 50
88.49999999999075
 51
178.4999999993652
  0
ARC
  5
F02
330
1F
100
AcDbEntity
  8
SANINDUSA
100
AcDbCircle
 10
-16.31389535619588
 20
767.9487024747744
 30
0.0
 40
0.0020000000000002
100
AcDbArc
 50
178.4999999999973
 51
268.5000000000006
  0
ARC
  5
F04
330
1F
100
AcDbEntity
  8
SANINDUSA
100
AcDbCircle
 10
-16.30046599272885
 20
767.9413484149685
 30
0.0
 40
0.0050000000000002
100
AcDbArc
 50
6.999999999999437
 51
88.50000000000054
  0
ARC
  5
F08
330
1F
100
AcDbEntity
  8
SANINDUSA
100
AcDbCircle
 10
-16.29425323507893
 20
767.9481881277314
 30
0.0
 40
0.0080000000000001
100
AcDbArc
 50
7.000000000006003
 51
88.49999999999891
  0
ARC
  5
F0D
330
1F
100
AcDbEntity
  8
SANINDUSA
100
AcDbCircle
 10
-16.18872930212417
 20
768.0220141216424
 30
0.0
 40
0.1900000000000001
100
AcDbArc
 50
281.7615741330621
 51
339.4950161330799
  0
ARC
  5
F0E
330
1F
100
AcDbEntity
  8
SANINDUSA
100
AcDbCircle
 10
-16.18872930212417
 20
768.0220141216424
 30
0.0
 40
0.2
100
AcDbArc
 50
282.0058639450767
 51
338.6840488567138
  0
LINE
  5
F12
330
1F
100
AcDbEntity
  8
SANINDUSA
100
AcDbLine
 10
-16.15438927406939
 20
767.8338737029727
 30
0.0
 11
-16.16525716869231
 21
767.8247544566029
 31
0.0
  0
ARC
  5
F13
330
1F
100
AcDbEntity
  8
SANINDUSA
100
AcDbCircle
 10
-16.14504682446219
 20
767.8166075951022
 30
0.0
 40
0.0100000000000001
100
AcDbArc
 50
102.0058639450754
 51
178.9999999999982
  0
LINE
  5
F14
330
1F
100
AcDbEntity
  8
SANINDUSA
100
AcDbLine
 10
-16.21582929259545
 20
767.8247544566029
 30
0.0
 11
-16.22669718721837
 21
767.8338737029727
 31
0.0
  0
LINE
  5
F18
330
1F
100
AcDbEntity
  8
SANINDUSA
100
AcDbLine
 10
-16.16604323064388
 20
767.7882557726781
 30
0.0
 11
-16.21504323064388
 21
767.7882557726781
 31
0.0
  0
LWPOLYLINE
  5
F1A
330
1F
100
AcDbEntity
  8
SANINDUSA
100
AcDbPolyline
 90
        3
 70
   128
 43
0.0
 10
-16.22569768925832
 20
767.7971047007729
 10
-16.22606190161439
 20
767.8003391422857
 10
-16.22661214842762
 20
767.8035703365549
  0
LINE
  5
F1B
330
1F
100
AcDbEntity
  8
SANINDUSA
100
AcDbLine
 10
-16.21404323064387
 20
767.7892557726781
 30
0.0
 11
-16.21404323064387
 21
767.8209242343873
 31
0.0
  0
ARC
  5
F1C
330
1F
100
AcDbEntity
  8
SANINDUSA
100
AcDbCircle
 10
-16.22357783611765
 20
767.7902557726781
 30
0.0
 40
0.0020000000000001
100
AcDbArc
 50
180.9999999999952
 51
270.0
  0
LINE
  5
F1D
330
1F
100
AcDbEntity
  8
SANINDUSA
100
AcDbLine
 10
-16.22357783611765
 20
767.7882557726781
 30
0.0
 11
-16.21504323064388
 21
767.7882557726781
 31
0.0
  0
ARC
  5
F1E
330
1F
100
AcDbEntity
  8
SANINDUSA
100
AcDbCircle
 10
-16.21504323064388
 20
767.7892557726781
 30
0.0
 40
0.001
100
AcDbArc
 50
270.0
 51
0.0
  0
LINE
  5
F1F
330
1F
100
AcDbEntity
  8
SANINDUSA
100
AcDbLine
 10
-16.22569768925832
 20
767.7971047007729
 30
0.0
 11
-16.22557753150796
 21
767.7902208678652
 31
0.0
  0
LWPOLYLINE
  5
F20
330
1F
100
AcDbEntity
  8
SANINDUSA
100
AcDbPolyline
 90
        3
 70
   128
 43
0.0
 10
-16.22661214842762
 20
767.8035703365549
 10
-16.22717169552563
 20
767.8075209321756
 10
-16.22797151699138
 20
767.811442628139
  0
ARC
  5
F21
330
1F
100
AcDbEntity
  8
SANINDUSA
100
AcDbCircle
 10
-16.21904323064388
 20
767.8209242343873
 30
0.0
 40
0.005
100
AcDbArc
 50
0.0
 51
49.99999999999985
  0
LINE
  5
F22
330
1F
100
AcDbEntity
  8
SANINDUSA
100
AcDbLine
 10
-16.16704323064388
 20
767.8209242343873
 30
0.0
 11
-16.16704323064388
 21
767.7892557726781
 31
0.0
  0
LINE
  5
F23
330
1F
100
AcDbEntity
  8
SANINDUSA
100
AcDbLine
 10
-16.1555089297798
 20
767.7902208678652
 30
0.0
 11
-16.15504530141375
 21
767.8167821191666
 31
0.0
  0
ARC
  5
F24
330
1F
100
AcDbEntity
  8
SANINDUSA
100
AcDbCircle
 10
-16.16604323064388
 20
767.7892557726781
 30
0.0
 40
0.001
100
AcDbArc
 50
180.0
 51
270.0
  0
LINE
  5
F25
330
1F
100
AcDbEntity
  8
SANINDUSA
100
AcDbLine
 10
-16.16604323064388
 20
767.7882557726781
 30
0.0
 11
-16.15750862517011
 21
767.7882557726781
 31
0.0
  0
ARC
  5
F26
330
1F
100
AcDbEntity
  8
SANINDUSA
100
AcDbCircle
 10
-16.15750862517011
 20
767.7902557726781
 30
0.0
 40
0.0020000000000001
100
AcDbArc
 50
270.0
 51
359.0000000000047
  0
ARC
  5
F27
330
1F
100
AcDbEntity
  8
SANINDUSA
100
AcDbCircle
 10
-16.16204323064388
 20
767.8209242343873
 30
0.0
 40
0.0050000000000002
100
AcDbArc
 50
130.0000000000013
 51
180.0
  0
ARC
  5
F29
330
1F
100
AcDbEntity
  8
SANINDUSA
100
AcDbCircle
 10
-16.14796139797252
 20
767.8262132585415
 30
0.0
 40
0.0100000000000002
100
AcDbArc
 50
101.7615741330637
 51
130.0000000000013
  0
ARC
  5
F31
330
1F
100
AcDbEntity
  8
SANINDUSA
100
AcDbCircle
 10
-15.99304323064388
 20
767.953255772678
 30
0.0
 40
0.0100000000000003
100
AcDbArc
 50
0.0
 51
90.0
  0
ARC
  5
F35
330
1F
100
AcDbEntity
  8
SANINDUSA
100
AcDbCircle
 10
-15.99952767408721
 20
767.9512557726781
 30
0.0
 40
0.0120000000000002
100
AcDbArc
 50
90.0
 51
159.4950161330793
  0
LINE
  5
F36
330
1F
100
AcDbEntity
  8
SANINDUSA
100
AcDbLine
 10
-15.99304323064388
 20
767.9632557726781
 30
0.0
 11
-15.99952767408721
 21
767.9632557726781
 31
0.0
  0
LINE
  5
F37
330
1F
100
AcDbEntity
  8
SANINDUSA
100
AcDbLine
 10
-15.98904323064388
 20
767.9512557726781
 30
0.0
 11
-15.98304323064388
 21
767.9512557726781
 31
0.0
  0
LINE
  5
F38
330
1F
100
AcDbEntity
  8
SANINDUSA
100
AcDbLine
 10
-16.00130756700465
 20
767.9512557726781
 30
0.0
 11
-15.98904323064388
 21
767.9512557726781
 31
0.0
  0
ARC
  5
F39
330
1F
100
AcDbEntity
  8
SANINDUSA
100
AcDbCircle
 10
-15.99517539882427
 20
767.9464885249126
 30
0.0
 40
0.0077672477654275
100
AcDbArc
 50
37.86207830878634
 51
158.6840488567137
  0
LINE
  5
F3A
330
1F
100
AcDbEntity
  8
SANINDUSA
100
AcDbLine
 10
-15.98304323064388
 20
767.9512557726781
 30
0.0
 11
-15.98304323064388
 21
767.953255772678
 31
0.0
  0
LINE
  5
F3C
330
1F
100
AcDbEntity
  8
SANINDUSA
100
AcDbLine
 10
-17.46502651235068
 20
767.963255772678
 30
0.0
 11
-17.07002651235228
 21
767.963255772678
 31
0.0
  0
LINE
  5
F3D
330
1F
100
AcDbEntity
  8
SANINDUSA
100
AcDbLine
 10
-17.06002651235229
 20
767.9512557726781
 30
0.0
 11
-17.47502651235229
 21
767.9512557726781
 31
0.0
  0
LWPOLYLINE
  5
F41
330
1F
100
AcDbEntity
  8
SANINDUSA
100
AcDbPolyline
 90
        7
 70
   128
 43
0.0
 10
-17.42289361301827
 20
767.9506420701716
 10
-17.42255897946598
 20
767.9507515871754
 10
-17.42233358731445
 20
767.9507257293911
 10
-17.42182460535242
 20
767.9505081671294
 10
-17.4213487023442
 20
767.9501411552329
 10
-17.42081727419618
 20
767.9494983737072
 10
-17.42070463480637
 20
767.949312001802
  0
LINE
  5
F42
330
1F
100
AcDbEntity
  8
SANINDUSA
100
AcDbLine
 10
-17.47502651235229
 20
767.953255772678
 30
0.0
 11
-17.47502651235229
 21
767.9512557726781
 31
0.0
  0
ARC
  5
F43
330
1F
100
AcDbEntity
  8
SANINDUSA
100
AcDbCircle
 10
-17.46502651235228
 20
767.953255772678
 30
0.0
 40
0.01
100
AcDbArc
 50
90.0
 51
180.0
  0
LINE
  5
F44
330
1F
100
AcDbEntity
  8
SANINDUSA
100
AcDbLine
 10
-17.43365942325451
 20
767.9478220434792
 30
0.0
 11
-17.45150788256882
 21
767.9482894218356
 31
0.0
  0
LWPOLYLINE
  5
F46
330
1F
100
AcDbEntity
  8
SANINDUSA
100
AcDbPolyline
 90
        9
 70
   128
 43
0.0
 10
-17.45150788256882
 20
767.9482894218356
 10
-17.45201655066791
 20
767.9483157126612
 10
-17.45253486505853
 20
767.9483693761278
 10
-17.45304968038642
 20
767.9484499661709
 10
-17.45355959877486
 20
767.948557263965
 10
-17.45406323564382
 20
767.9486909781643
 10
-17.45455922346941
 20
767.9488507456952
 10
-17.45504621549722
 20
767.9490361327412
 10
-17.45565845334182
 20
767.949312001802
  0
ARC
  5
F47
330
1F
100
AcDbEntity
  8
SANINDUSA
100
AcDbCircle
 10
-17.4628943441719
 20
767.9464885249126
 30
0.0
 40
0.0077672477654275
100
AcDbArc
 50
21.31595114328623
 51
37.86207830878544
  0
LWPOLYLINE
  5
F5A
330
1F
100
AcDbEntity
  8
SANINDUSA
100
AcDbPolyline
 90
        7
 70
   128
 43
0.0
 10
-17.43365942325451
 20
767.9478220434792
 10
-17.43365942325451
 20
767.9478220434792
 10
-17.43355118188294
 20
767.947745232117
 10
-17.43318672421839
 20
767.9473808364718
 10
-17.43279373100595
 20
767.9468281609485
 10
-17.43250937659928
 20
767.946073856675
 10
-17.43247337914835
 20
767.9459545830463
  0
LWPOLYLINE
  5
F5B
330
1F
100
AcDbEntity
  8
SANINDUSA
100
AcDbPolyline
 90
       11
 70
   128
 43
0.0
 10
-17.42070463480637
 20
767.949312001802
 10
-17.41967143941965
 20
767.9481493543958
 10
-17.41869972790863
 20
767.9468292128161
 10
-17.41586481051283
 20
767.9424598565626
 10
-17.41319961795715
 20
767.9378858691539
 10
-17.41062337500602
 20
767.9332295829421
 10
-17.40805530642384
 20
767.9286133302797
 10
-17.40283027062518
 20
767.9196315453092
 10
-17.39743574031367
 20
767.9108730983162
 10
-17.38952277667947
 20
767.8990950706073
 10
-17.38115555387291
 20
767.8879408883267
  0
ARC
  5
F60
330
1F
100
AcDbEntity
  8
SANINDUSA
100
AcDbCircle
 10
-17.07215868053267
 20
767.9464885249126
 30
0.0
 40
0.0077672477654275
100
AcDbArc
 50
142.1379216912145
 51
158.6840488567137
  0
LINE
  5
F61
330
1F
100
AcDbEntity
  8
SANINDUSA
100
AcDbLine
 10
-17.06002651235229
 20
767.9512557726781
 30
0.0
 11
-17.06002651235229
 21
767.953255772678
 31
0.0
  0
ARC
  5
F62
330
1F
100
AcDbEntity
  8
SANINDUSA
100
AcDbCircle
 10
-17.07002651235228
 20
767.953255772678
 30
0.0
 40
0.01
100
AcDbArc
 50
0.0
 51
90.0
  0
ENDSEC
  0
SECTION
  2
OBJECTS
  0
DICTIONARY
  5
C
330
0
100
AcDbDictionary
281
     1
  3
ACAD_COLOR
350
10B5
  3
ACAD_GROUP
350
D
  3
ACAD_LAYOUT
350
1A
  3
ACAD_MATERIAL
350
10B4
  3
ACAD_MLINESTYLE
350
17
  3
ACAD_PLOTSETTINGS
350
19
  3
ACAD_PLOTSTYLENAME
350
E
  3
ACAD_TABLESTYLE
350
10B6
  3
ACDBHEADERROUNDTRIPXREC
350
10BF
  3
AcDbVariableDictionary
350
3D
  3
ASE_INDEX_DICTIONARY
350
B91
  0
DICTIONARY
  5
10B5
102
{ACAD_REACTORS
330
C
102
}
330
C
100
AcDbDictionary
281
     1
  0
DICTIONARY
  5
D
102
{ACAD_REACTORS
330
C
102
}
330
C
100
AcDbDictionary
281
     1
  0
DICTIONARY
  5
1A
102
{ACAD_REACTORS
330
C
102
}
330
C
100
AcDbDictionary
281
     1
  3
Layout1
350
1E
  3
Layout2
350
26
  3
Model
350
22
  0
DICTIONARY
  5
10B4
102
{ACAD_REACTORS
330
C
102
}
330
C
100
AcDbDictionary
281
     1
  0
DICTIONARY
  5
17
102
{ACAD_REACTORS
330
C
102
}
330
C
100
AcDbDictionary
281
     1
  3
Standard
350
18
  0
DICTIONARY
  5
19
102
{ACAD_REACTORS
330
C
102
}
330
C
100
AcDbDictionary
281
     1
  0
ACDBDICTIONARYWDFLT
  5
E
102
{ACAD_REACTORS
330
C
102
}
330
C
100
AcDbDictionary
281
     1
  3
Normal
350
F
100
AcDbDictionaryWithDefault
340
F
  0
DICTIONARY
  5
10B6
102
{ACAD_REACTORS
330
C
102
}
330
C
100
AcDbDictionary
281
     1
  3
Standard
350
10B7
  0
DICTIONARY
  5
10BF
102
{ACAD_REACTORS
330
C
102
}
330
C
100
AcDbDictionary
281
     1
  0
DICTIONARY
  5
3D
102
{ACAD_REACTORS
330
C
102
}
330
C
100
AcDbDictionary
281
     1
  3
CTABLESTYLE
350
10BC
  3
DIMASSOC
350
3F
  3
HIDETEXT
350
3E
  3
PROJECTNAME
350
10BD
  0
DICTIONARY
  5
B91
102
{ACAD_REACTORS
330
C
102
}
330
C
100
AcDbDictionary
281
     1
  3
ASEBlockHierarchyIndexRecord
350
B92
1001
DCO15
1040
1485069952.593
  0
LAYOUT
  5
1E
102
{ACAD_XDICTIONARY
360
10C0
102
}
102
{ACAD_REACTORS
330
1A
102
}
330
1A
100
AcDbPlotSettings
  1

  2
Ploter HP500
  4

  6

 40
0.0
 41
0.0
 42
0.0
 43
0.0
 44
0.0
 45
0.0
 46
0.0
 47
0.0
 48
0.0
 49
0.0
140
0.0
141
0.0
142
1.0
143
1.0
 70
   688
 72
     0
 73
     0
 74
     5
  7
monochrome.ctb
 75
    16
147
1.0
148
0.0
149
0.0
100
AcDbLayout
  1
Layout1
 70
     1
 71
     1
 10
0.0
 20
0.0
 11
420.0
 21
297.0
 12
0.0
 22
0.0
 32
0.0
 14
1.000000000000000E+20
 24
1.000000000000000E+20
 34
1.000000000000000E+20
 15
-1.000000000000000E+20
 25
-1.000000000000000E+20
 35
-1.000000000000000E+20
146
0.0
 13
0.0
 23
0.0
 33
0.0
 16
1.0
 26
0.0
 36
0.0
 17
0.0
 27
1.0
 37
0.0
 76
     0
330
1B
  0
LAYOUT
  5
26
102
{ACAD_XDICTIONARY
360
10C4
102
}
102
{ACAD_REACTORS
330
1A
102
}
330
1A
100
AcDbPlotSettings
  1

  2
Ploter HP500
  4

  6

 40
0.0
 41
0.0
 42
0.0
 43
0.0
 44
0.0
 45
0.0
 46
0.0
 47
0.0
 48
0.0
 49
0.0
140
0.0
141
0.0
142
1.0
143
1.0
 70
   688
 72
     0
 73
     0
 74
     5
  7
monochrome.ctb
 75
    16
147
1.0
148
0.0
149
0.0
100
AcDbLayout
  1
Layout2
 70
     1
 71
     2
 10
0.0
 20
0.0
 11
12.0
 21
9.0
 12
0.0
 22
0.0
 32
0.0
 14
0.0
 24
0.0
 34
0.0
 15
0.0
 25
0.0
 35
0.0
146
0.0
 13
0.0
 23
0.0
 33
0.0
 16
1.0
 26
0.0
 36
0.0
 17
0.0
 27
1.0
 37
0.0
 76
     0
330
23
  0
LAYOUT
  5
22
102
{ACAD_XDICTIONARY
360
10C2
102
}
102
{ACAD_REACTORS
330
1A
102
}
330
1A
100
AcDbPlotSettings
  1

  2
Ploter HP500
  4
User268
  6

 40
4.995333194732666
 41
16.97565841674804
 42
4.995330810546875
 43
16.97567749023437
 44
209.9733276367187
 45
296.9259948730469
 46
0.0
 47
0.0
 48
0.0
 49
0.0
140
0.0
141
0.0
142
1.0
143
1.0
 70
 11952
 72
     1
 73
     1
 74
     0
  7

 75
     0
147
1.0
148
-427.5957866592534
149
7.362384574453926
100
AcDbLayout
  1
Model
 70
     1
 71
     0
 10
0.0
 20
0.0
 11
12.0
 21
9.0
 12
0.0
 22
0.0
 32
0.0
 14
0.0
 24
0.0
 34
0.0
 15
0.0
 25
0.0
 35
0.0
146
0.0
 13
0.0
 23
0.0
 33
0.0
 16
1.0
 26
0.0
 36
0.0
 17
0.0
 27
1.0
 37
0.0
 76
     0
330
1F
  0
MLINESTYLE
  5
18
102
{ACAD_REACTORS
330
17
102
}
330
17
100
AcDbMlineStyle
  2
STANDARD
 70
     0
  3

 62
   256
 51
90.0
 52
90.0
 71
     2
 49
0.5
 62
   256
  6
BYLAYER
 49
-0.5
 62
   256
  6
BYLAYER
  0
ACDBPLACEHOLDER
  5
F
102
{ACAD_REACTORS
330
E
102
}
330
E
  0
TABLESTYLE
  5
10B7
102
{ACAD_REACTORS
330
10B6
102
}
330
10B6
100
AcDbTableStyle
  3
Standard
 70
     0
 71
     0
 40
1.5
 41
1.5
280
     0
281
     0
  7
Standard
140
4.5
170
     2
 62
     0
 63
     7
283
     0
274
    -2
284
     1
 64
     0
275
    -2
285
     1
 65
     0
276
    -2
286
     1
 66
     0
277
    -2
287
     1
 67
     0
278
    -2
288
     1
 68
     0
279
    -2
289
     1
 69
     0
  7
Standard
140
6.0
170
     5
 62
     0
 63
     7
283
     0
274
    -2
284
     1
 64
     0
275
    -2
285
     1
 65
     0
276
    -2
286
     1
 66
     0
277
    -2
287
     1
 67
     0
278
    -2
288
     1
 68
     0
279
    -2
289
     1
 69
     0
  7
Standard
140
4.5
170
     5
 62
     0
 63
     7
283
     0
274
    -2
284
     1
 64
     0
275
    -2
285
     1
 65
     0
276
    -2
286
     1
 66
     0
277
    -2
287
     1
 67
     0
278
    -2
288
     1
 68
     0
279
    -2
289
     1
 69
     0
  0
DICTIONARYVAR
  5
10BC
102
{ACAD_REACTORS
330
3D
102
}
330
3D
100
DictionaryVariables
280
     0
  1
STANDARD
  0
DICTIONARYVAR
  5
3F
102
{ACAD_REACTORS
330
3D
102
}
330
3D
100
DictionaryVariables
280
     0
  1
2
  0
DICTIONARYVAR
  5
3E
102
{ACAD_REACTORS
330
3D
102
}
330
3D
100
DictionaryVariables
280
     0
  1
1
  0
DICTIONARYVAR
  5
10BD
102
{ACAD_REACTORS
330
3D
102
}
330
3D
100
DictionaryVariables
280
     0
  1

  0
XRECORD
  5
B92
102
{ACAD_REACTORS
330
B91
102
}
330
B91
100
AcDbXrecord
280
     1
  0
DICTIONARY
  5
10C0
330
1E
100
AcDbDictionary
280
     1
281
     1
  3
ACAD_XREC_ROUNDTRIP
360
10C1
  0
DICTIONARY
  5
10C4
330
26
100
AcDbDictionary
280
     1
281
     1
  3
ACAD_XREC_ROUNDTRIP
360
10C5
  0
DICTIONARY
  5
10C2
330
22
100
AcDbDictionary
280
     1
281
     1
  3
ACAD_XREC_ROUNDTRIP
360
10C3
  0
XRECORD
  5
10C1
102
{ACAD_REACTORS
330
10C0
102
}
330
10C0
100
AcDbXrecord
280
     1
102
SHADEPLOT
 70
     0
102
SHADEPLOTRESLEVEL
 70
     2
102
SHADEPLOTCUSTOMDPI
 70
   300
  0
XRECORD
  5
10C5
102
{ACAD_REACTORS
330
10C4
102
}
330
10C4
100
AcDbXrecord
280
     1
102
SHADEPLOT
 70
     0
102
SHADEPLOTRESLEVEL
 70
     2
102
SHADEPLOTCUSTOMDPI
 70
   300
  0
XRECORD
  5
10C3
102
{ACAD_REACTORS
330
10C2
102
}
330
10C2
100
AcDbXrecord
280
     1
102
SHADEPLOT
 70
     0
102
SHADEPLOTRESLEVEL
 70
     2
102
SHADEPLOTCUSTOMDPI
 70
   300
  0
ENDSEC
  0
EOF
